ISO-10303-21;
HEADER;
/* Generated by software containing ST-Developer
 * from STEP Tools, Inc. (www.steptools.com) 
 */

FILE_DESCRIPTION(
/* description */ (''),
/* implementation_level */ '2;1');

FILE_NAME(
/* name */ 'C:/Users/nated/Desktop/LED Release v1.step',
/* time_stamp */ '2019-02-05T21:01:53-05:00',
/* author */ ('nate.damen'),
/* organization */ (''),
/* preprocessor_version */ 'ST-DEVELOPER v17.2',
/* originating_system */ 'Autodesk Translation Framework v7.6.0.251',
/* authorisation */ '');

FILE_SCHEMA (('AUTOMOTIVE_DESIGN { 1 0 10303 214 3 1 1 }'));
ENDSEC;

DATA;
#10=MECHANICAL_DESIGN_GEOMETRIC_PRESENTATION_REPRESENTATION('',(#13),#609);
#11=SHAPE_REPRESENTATION_RELATIONSHIP('SRR','None',#616,#12);
#12=ADVANCED_BREP_SHAPE_REPRESENTATION('',(#341),#608);
#13=STYLED_ITEM('',(#626),#341);
#14=FACE_BOUND('',#76,.T.);
#15=ORIENTED_CLOSED_SHELL('',*,#338,.F.);
#16=ORIENTED_CLOSED_SHELL('',*,#339,.F.);
#17=PLANE('',#362);
#18=PLANE('',#364);
#19=PLANE('',#375);
#20=PLANE('',#377);
#21=PLANE('',#380);
#22=PLANE('',#382);
#23=PLANE('',#383);
#24=PLANE('',#384);
#25=PLANE('',#385);
#26=PLANE('',#389);
#27=PLANE('',#392);
#28=SPHERICAL_SURFACE('',#358,5.75000000000003);
#29=SPHERICAL_SURFACE('',#366,5.75000000000002);
#30=SPHERICAL_SURFACE('',#369,5.75000000000002);
#31=SPHERICAL_SURFACE('',#372,5.75000000000003);
#32=SPHERICAL_SURFACE('',#393,7.00000000000002);
#33=SPHERICAL_SURFACE('',#395,7.00000000000003);
#34=FACE_OUTER_BOUND('',#57,.T.);
#35=FACE_OUTER_BOUND('',#58,.T.);
#36=FACE_OUTER_BOUND('',#59,.T.);
#37=FACE_OUTER_BOUND('',#60,.T.);
#38=FACE_OUTER_BOUND('',#61,.T.);
#39=FACE_OUTER_BOUND('',#62,.T.);
#40=FACE_OUTER_BOUND('',#63,.T.);
#41=FACE_OUTER_BOUND('',#64,.T.);
#42=FACE_OUTER_BOUND('',#65,.T.);
#43=FACE_OUTER_BOUND('',#66,.T.);
#44=FACE_OUTER_BOUND('',#67,.T.);
#45=FACE_OUTER_BOUND('',#68,.T.);
#46=FACE_OUTER_BOUND('',#69,.T.);
#47=FACE_OUTER_BOUND('',#70,.T.);
#48=FACE_OUTER_BOUND('',#71,.T.);
#49=FACE_OUTER_BOUND('',#72,.T.);
#50=FACE_OUTER_BOUND('',#73,.T.);
#51=FACE_OUTER_BOUND('',#74,.T.);
#52=FACE_OUTER_BOUND('',#75,.T.);
#53=FACE_OUTER_BOUND('',#77,.T.);
#54=FACE_OUTER_BOUND('',#78,.T.);
#55=FACE_OUTER_BOUND('',#79,.T.);
#56=FACE_OUTER_BOUND('',#80,.T.);
#57=EDGE_LOOP('',(#221,#222,#223,#224));
#58=EDGE_LOOP('',(#225,#226,#227,#228));
#59=EDGE_LOOP('',(#229,#230,#231,#232));
#60=EDGE_LOOP('',(#233,#234,#235,#236));
#61=EDGE_LOOP('',(#237,#238,#239,#240));
#62=EDGE_LOOP('',(#241,#242,#243,#244));
#63=EDGE_LOOP('',(#245,#246));
#64=EDGE_LOOP('',(#247,#248));
#65=EDGE_LOOP('',(#249,#250,#251,#252));
#66=EDGE_LOOP('',(#253,#254,#255,#256));
#67=EDGE_LOOP('',(#257,#258,#259,#260));
#68=EDGE_LOOP('',(#261,#262,#263,#264));
#69=EDGE_LOOP('',(#265,#266,#267,#268));
#70=EDGE_LOOP('',(#269,#270,#271,#272));
#71=EDGE_LOOP('',(#273,#274,#275,#276));
#72=EDGE_LOOP('',(#277,#278,#279,#280));
#73=EDGE_LOOP('',(#281,#282,#283,#284));
#74=EDGE_LOOP('',(#285,#286,#287,#288));
#75=EDGE_LOOP('',(#289,#290,#291,#292));
#76=EDGE_LOOP('',(#293,#294,#295,#296));
#77=EDGE_LOOP('',(#297,#298,#299,#300));
#78=EDGE_LOOP('',(#301,#302));
#79=EDGE_LOOP('',(#303,#304));
#80=EDGE_LOOP('',(#305,#306,#307,#308));
#81=LINE('',#516,#105);
#82=LINE('',#519,#106);
#83=LINE('',#529,#107);
#84=LINE('',#532,#108);
#85=LINE('',#548,#109);
#86=LINE('',#549,#110);
#87=LINE('',#556,#111);
#88=LINE('',#559,#112);
#89=LINE('',#563,#113);
#90=LINE('',#567,#114);
#91=LINE('',#568,#115);
#92=LINE('',#572,#116);
#93=LINE('',#573,#117);
#94=LINE('',#574,#118);
#95=LINE('',#578,#119);
#96=LINE('',#579,#120);
#97=LINE('',#580,#121);
#98=LINE('',#582,#122);
#99=LINE('',#589,#123);
#100=LINE('',#590,#124);
#101=LINE('',#593,#125);
#102=LINE('',#594,#126);
#103=LINE('',#597,#127);
#104=LINE('',#600,#128);
#105=VECTOR('',#404,10.);
#106=VECTOR('',#407,10.);
#107=VECTOR('',#420,10.);
#108=VECTOR('',#423,10.);
#109=VECTOR('',#446,10.);
#110=VECTOR('',#447,10.);
#111=VECTOR('',#454,10.);
#112=VECTOR('',#457,10.);
#113=VECTOR('',#460,10.);
#114=VECTOR('',#463,10.);
#115=VECTOR('',#464,10.);
#116=VECTOR('',#467,10.);
#117=VECTOR('',#468,10.);
#118=VECTOR('',#469,10.);
#119=VECTOR('',#472,10.);
#120=VECTOR('',#473,10.);
#121=VECTOR('',#474,10.);
#122=VECTOR('',#477,10.);
#123=VECTOR('',#486,10.);
#124=VECTOR('',#487,10.);
#125=VECTOR('',#490,10.);
#126=VECTOR('',#491,10.);
#127=VECTOR('',#494,10.);
#128=VECTOR('',#499,10.);
#129=CIRCLE('',#356,2.);
#130=CIRCLE('',#357,2.);
#131=CIRCLE('',#359,5.75000000000001);
#132=CIRCLE('',#360,5.75000000000003);
#133=CIRCLE('',#361,5.75000000000001);
#134=CIRCLE('',#363,5.75);
#135=CIRCLE('',#365,5.75);
#136=CIRCLE('',#367,5.74999999999999);
#137=CIRCLE('',#370,0.750000000000001);
#138=CIRCLE('',#371,5.75);
#139=CIRCLE('',#373,0.750000000000001);
#140=CIRCLE('',#374,5.75000000000001);
#141=CIRCLE('',#378,7.);
#142=CIRCLE('',#379,7.);
#143=CIRCLE('',#381,7.);
#144=CIRCLE('',#386,7.);
#145=CIRCLE('',#388,7.);
#146=CIRCLE('',#391,7.);
#147=CIRCLE('',#394,6.99999999999998);
#148=CIRCLE('',#396,7.00000000000003);
#149=VERTEX_POINT('',#512);
#150=VERTEX_POINT('',#513);
#151=VERTEX_POINT('',#515);
#152=VERTEX_POINT('',#517);
#153=VERTEX_POINT('',#521);
#154=VERTEX_POINT('',#523);
#155=VERTEX_POINT('',#527);
#156=VERTEX_POINT('',#531);
#157=VERTEX_POINT('',#538);
#158=VERTEX_POINT('',#539);
#159=VERTEX_POINT('',#543);
#160=VERTEX_POINT('',#544);
#161=VERTEX_POINT('',#552);
#162=VERTEX_POINT('',#553);
#163=VERTEX_POINT('',#555);
#164=VERTEX_POINT('',#557);
#165=VERTEX_POINT('',#561);
#166=VERTEX_POINT('',#562);
#167=VERTEX_POINT('',#564);
#168=VERTEX_POINT('',#566);
#169=VERTEX_POINT('',#570);
#170=VERTEX_POINT('',#571);
#171=VERTEX_POINT('',#576);
#172=VERTEX_POINT('',#577);
#173=VERTEX_POINT('',#586);
#174=VERTEX_POINT('',#587);
#175=VERTEX_POINT('',#592);
#176=VERTEX_POINT('',#596);
#177=EDGE_CURVE('',#149,#150,#129,.T.);
#178=EDGE_CURVE('',#151,#149,#81,.T.);
#179=EDGE_CURVE('',#152,#151,#130,.T.);
#180=EDGE_CURVE('',#150,#152,#82,.T.);
#181=EDGE_CURVE('',#153,#151,#131,.T.);
#182=EDGE_CURVE('',#153,#154,#132,.T.);
#183=EDGE_CURVE('',#152,#154,#133,.T.);
#184=EDGE_CURVE('',#155,#149,#134,.T.);
#185=EDGE_CURVE('',#155,#153,#83,.T.);
#186=EDGE_CURVE('',#156,#154,#84,.T.);
#187=EDGE_CURVE('',#150,#156,#135,.T.);
#188=EDGE_CURVE('',#155,#156,#136,.T.);
#189=EDGE_CURVE('',#157,#158,#137,.T.);
#190=EDGE_CURVE('',#158,#157,#138,.T.);
#191=EDGE_CURVE('',#159,#160,#139,.T.);
#192=EDGE_CURVE('',#159,#160,#140,.T.);
#193=EDGE_CURVE('',#160,#157,#85,.T.);
#194=EDGE_CURVE('',#158,#159,#86,.T.);
#195=EDGE_CURVE('',#161,#162,#141,.T.);
#196=EDGE_CURVE('',#162,#163,#87,.T.);
#197=EDGE_CURVE('',#163,#164,#142,.T.);
#198=EDGE_CURVE('',#164,#161,#88,.T.);
#199=EDGE_CURVE('',#165,#166,#89,.T.);
#200=EDGE_CURVE('',#167,#166,#143,.T.);
#201=EDGE_CURVE('',#167,#168,#90,.T.);
#202=EDGE_CURVE('',#168,#165,#91,.T.);
#203=EDGE_CURVE('',#169,#170,#92,.T.);
#204=EDGE_CURVE('',#169,#168,#93,.T.);
#205=EDGE_CURVE('',#170,#167,#94,.T.);
#206=EDGE_CURVE('',#171,#172,#95,.T.);
#207=EDGE_CURVE('',#171,#166,#96,.T.);
#208=EDGE_CURVE('',#172,#165,#97,.T.);
#209=EDGE_CURVE('',#172,#169,#98,.T.);
#210=EDGE_CURVE('',#170,#171,#144,.T.);
#211=EDGE_CURVE('',#173,#174,#145,.T.);
#212=EDGE_CURVE('',#173,#164,#99,.T.);
#213=EDGE_CURVE('',#174,#163,#100,.T.);
#214=EDGE_CURVE('',#175,#174,#101,.T.);
#215=EDGE_CURVE('',#175,#162,#102,.T.);
#216=EDGE_CURVE('',#176,#161,#103,.T.);
#217=EDGE_CURVE('',#176,#175,#146,.T.);
#218=EDGE_CURVE('',#176,#173,#104,.T.);
#219=EDGE_CURVE('',#176,#175,#147,.T.);
#220=EDGE_CURVE('',#173,#174,#148,.T.);
#221=ORIENTED_EDGE('',*,*,#177,.F.);
#222=ORIENTED_EDGE('',*,*,#178,.F.);
#223=ORIENTED_EDGE('',*,*,#179,.F.);
#224=ORIENTED_EDGE('',*,*,#180,.F.);
#225=ORIENTED_EDGE('',*,*,#179,.T.);
#226=ORIENTED_EDGE('',*,*,#181,.F.);
#227=ORIENTED_EDGE('',*,*,#182,.T.);
#228=ORIENTED_EDGE('',*,*,#183,.F.);
#229=ORIENTED_EDGE('',*,*,#178,.T.);
#230=ORIENTED_EDGE('',*,*,#184,.F.);
#231=ORIENTED_EDGE('',*,*,#185,.T.);
#232=ORIENTED_EDGE('',*,*,#181,.T.);
#233=ORIENTED_EDGE('',*,*,#180,.T.);
#234=ORIENTED_EDGE('',*,*,#183,.T.);
#235=ORIENTED_EDGE('',*,*,#186,.F.);
#236=ORIENTED_EDGE('',*,*,#187,.F.);
#237=ORIENTED_EDGE('',*,*,#177,.T.);
#238=ORIENTED_EDGE('',*,*,#187,.T.);
#239=ORIENTED_EDGE('',*,*,#188,.F.);
#240=ORIENTED_EDGE('',*,*,#184,.T.);
#241=ORIENTED_EDGE('',*,*,#185,.F.);
#242=ORIENTED_EDGE('',*,*,#188,.T.);
#243=ORIENTED_EDGE('',*,*,#186,.T.);
#244=ORIENTED_EDGE('',*,*,#182,.F.);
#245=ORIENTED_EDGE('',*,*,#189,.T.);
#246=ORIENTED_EDGE('',*,*,#190,.T.);
#247=ORIENTED_EDGE('',*,*,#191,.T.);
#248=ORIENTED_EDGE('',*,*,#192,.F.);
#249=ORIENTED_EDGE('',*,*,#193,.T.);
#250=ORIENTED_EDGE('',*,*,#190,.F.);
#251=ORIENTED_EDGE('',*,*,#194,.T.);
#252=ORIENTED_EDGE('',*,*,#192,.T.);
#253=ORIENTED_EDGE('',*,*,#189,.F.);
#254=ORIENTED_EDGE('',*,*,#193,.F.);
#255=ORIENTED_EDGE('',*,*,#191,.F.);
#256=ORIENTED_EDGE('',*,*,#194,.F.);
#257=ORIENTED_EDGE('',*,*,#195,.T.);
#258=ORIENTED_EDGE('',*,*,#196,.T.);
#259=ORIENTED_EDGE('',*,*,#197,.T.);
#260=ORIENTED_EDGE('',*,*,#198,.T.);
#261=ORIENTED_EDGE('',*,*,#199,.T.);
#262=ORIENTED_EDGE('',*,*,#200,.F.);
#263=ORIENTED_EDGE('',*,*,#201,.T.);
#264=ORIENTED_EDGE('',*,*,#202,.T.);
#265=ORIENTED_EDGE('',*,*,#203,.F.);
#266=ORIENTED_EDGE('',*,*,#204,.T.);
#267=ORIENTED_EDGE('',*,*,#201,.F.);
#268=ORIENTED_EDGE('',*,*,#205,.F.);
#269=ORIENTED_EDGE('',*,*,#206,.F.);
#270=ORIENTED_EDGE('',*,*,#207,.T.);
#271=ORIENTED_EDGE('',*,*,#199,.F.);
#272=ORIENTED_EDGE('',*,*,#208,.F.);
#273=ORIENTED_EDGE('',*,*,#209,.F.);
#274=ORIENTED_EDGE('',*,*,#208,.T.);
#275=ORIENTED_EDGE('',*,*,#202,.F.);
#276=ORIENTED_EDGE('',*,*,#204,.F.);
#277=ORIENTED_EDGE('',*,*,#206,.T.);
#278=ORIENTED_EDGE('',*,*,#209,.T.);
#279=ORIENTED_EDGE('',*,*,#203,.T.);
#280=ORIENTED_EDGE('',*,*,#210,.T.);
#281=ORIENTED_EDGE('',*,*,#211,.F.);
#282=ORIENTED_EDGE('',*,*,#212,.T.);
#283=ORIENTED_EDGE('',*,*,#197,.F.);
#284=ORIENTED_EDGE('',*,*,#213,.F.);
#285=ORIENTED_EDGE('',*,*,#214,.T.);
#286=ORIENTED_EDGE('',*,*,#213,.T.);
#287=ORIENTED_EDGE('',*,*,#196,.F.);
#288=ORIENTED_EDGE('',*,*,#215,.F.);
#289=ORIENTED_EDGE('',*,*,#215,.T.);
#290=ORIENTED_EDGE('',*,*,#195,.F.);
#291=ORIENTED_EDGE('',*,*,#216,.F.);
#292=ORIENTED_EDGE('',*,*,#217,.T.);
#293=ORIENTED_EDGE('',*,*,#207,.F.);
#294=ORIENTED_EDGE('',*,*,#210,.F.);
#295=ORIENTED_EDGE('',*,*,#205,.T.);
#296=ORIENTED_EDGE('',*,*,#200,.T.);
#297=ORIENTED_EDGE('',*,*,#218,.F.);
#298=ORIENTED_EDGE('',*,*,#216,.T.);
#299=ORIENTED_EDGE('',*,*,#198,.F.);
#300=ORIENTED_EDGE('',*,*,#212,.F.);
#301=ORIENTED_EDGE('',*,*,#217,.F.);
#302=ORIENTED_EDGE('',*,*,#219,.T.);
#303=ORIENTED_EDGE('',*,*,#211,.T.);
#304=ORIENTED_EDGE('',*,*,#220,.F.);
#305=ORIENTED_EDGE('',*,*,#218,.T.);
#306=ORIENTED_EDGE('',*,*,#220,.T.);
#307=ORIENTED_EDGE('',*,*,#214,.F.);
#308=ORIENTED_EDGE('',*,*,#219,.F.);
#309=CYLINDRICAL_SURFACE('',#355,2.);
#310=CYLINDRICAL_SURFACE('',#368,5.75000000000001);
#311=CYLINDRICAL_SURFACE('',#376,0.750000000000001);
#312=CYLINDRICAL_SURFACE('',#387,7.);
#313=CYLINDRICAL_SURFACE('',#390,7.);
#314=CYLINDRICAL_SURFACE('',#397,7.00000000000001);
#315=ADVANCED_FACE('',(#34),#309,.T.);
#316=ADVANCED_FACE('',(#35),#28,.F.);
#317=ADVANCED_FACE('',(#36),#17,.F.);
#318=ADVANCED_FACE('',(#37),#18,.F.);
#319=ADVANCED_FACE('',(#38),#29,.F.);
#320=ADVANCED_FACE('',(#39),#310,.F.);
#321=ADVANCED_FACE('',(#40),#30,.F.);
#322=ADVANCED_FACE('',(#41),#31,.F.);
#323=ADVANCED_FACE('',(#42),#19,.F.);
#324=ADVANCED_FACE('',(#43),#311,.F.);
#325=ADVANCED_FACE('',(#44),#20,.T.);
#326=ADVANCED_FACE('',(#45),#21,.F.);
#327=ADVANCED_FACE('',(#46),#22,.T.);
#328=ADVANCED_FACE('',(#47),#23,.T.);
#329=ADVANCED_FACE('',(#48),#24,.T.);
#330=ADVANCED_FACE('',(#49),#25,.F.);
#331=ADVANCED_FACE('',(#50),#312,.T.);
#332=ADVANCED_FACE('',(#51),#26,.T.);
#333=ADVANCED_FACE('',(#52,#14),#313,.T.);
#334=ADVANCED_FACE('',(#53),#27,.T.);
#335=ADVANCED_FACE('',(#54),#32,.T.);
#336=ADVANCED_FACE('',(#55),#33,.T.);
#337=ADVANCED_FACE('',(#56),#314,.T.);
#338=CLOSED_SHELL('',(#315,#316,#317,#318,#319,#320));
#339=CLOSED_SHELL('',(#321,#322,#323,#324));
#340=CLOSED_SHELL('',(#325,#326,#327,#328,#329,#330,#331,#332,#333,#334,
#335,#336,#337));
#341=BREP_WITH_VOIDS('Body1',#340,(#15,#16));
#342=DERIVED_UNIT_ELEMENT(#344,1.);
#343=DERIVED_UNIT_ELEMENT(#611,3.);
#344=(
MASS_UNIT()
NAMED_UNIT(*)
SI_UNIT(.KILO.,.GRAM.)
);
#345=DERIVED_UNIT((#342,#343));
#346=MEASURE_REPRESENTATION_ITEM('density measure',
POSITIVE_RATIO_MEASURE(7850.),#345);
#347=PROPERTY_DEFINITION_REPRESENTATION(#352,#349);
#348=PROPERTY_DEFINITION_REPRESENTATION(#353,#350);
#349=REPRESENTATION('material name',(#351),#608);
#350=REPRESENTATION('density',(#346),#608);
#351=DESCRIPTIVE_REPRESENTATION_ITEM('Steel','Steel');
#352=PROPERTY_DEFINITION('material property','material name',#618);
#353=PROPERTY_DEFINITION('material property','density of part',#618);
#354=AXIS2_PLACEMENT_3D('placement',#510,#398,#399);
#355=AXIS2_PLACEMENT_3D('',#511,#400,#401);
#356=AXIS2_PLACEMENT_3D('',#514,#402,#403);
#357=AXIS2_PLACEMENT_3D('',#518,#405,#406);
#358=AXIS2_PLACEMENT_3D('',#520,#408,#409);
#359=AXIS2_PLACEMENT_3D('',#522,#410,#411);
#360=AXIS2_PLACEMENT_3D('',#524,#412,#413);
#361=AXIS2_PLACEMENT_3D('',#525,#414,#415);
#362=AXIS2_PLACEMENT_3D('',#526,#416,#417);
#363=AXIS2_PLACEMENT_3D('',#528,#418,#419);
#364=AXIS2_PLACEMENT_3D('',#530,#421,#422);
#365=AXIS2_PLACEMENT_3D('',#533,#424,#425);
#366=AXIS2_PLACEMENT_3D('',#534,#426,#427);
#367=AXIS2_PLACEMENT_3D('',#535,#428,#429);
#368=AXIS2_PLACEMENT_3D('',#536,#430,#431);
#369=AXIS2_PLACEMENT_3D('',#537,#432,#433);
#370=AXIS2_PLACEMENT_3D('',#540,#434,#435);
#371=AXIS2_PLACEMENT_3D('',#541,#436,#437);
#372=AXIS2_PLACEMENT_3D('',#542,#438,#439);
#373=AXIS2_PLACEMENT_3D('',#545,#440,#441);
#374=AXIS2_PLACEMENT_3D('',#546,#442,#443);
#375=AXIS2_PLACEMENT_3D('',#547,#444,#445);
#376=AXIS2_PLACEMENT_3D('',#550,#448,#449);
#377=AXIS2_PLACEMENT_3D('',#551,#450,#451);
#378=AXIS2_PLACEMENT_3D('',#554,#452,#453);
#379=AXIS2_PLACEMENT_3D('',#558,#455,#456);
#380=AXIS2_PLACEMENT_3D('',#560,#458,#459);
#381=AXIS2_PLACEMENT_3D('',#565,#461,#462);
#382=AXIS2_PLACEMENT_3D('',#569,#465,#466);
#383=AXIS2_PLACEMENT_3D('',#575,#470,#471);
#384=AXIS2_PLACEMENT_3D('',#581,#475,#476);
#385=AXIS2_PLACEMENT_3D('',#583,#478,#479);
#386=AXIS2_PLACEMENT_3D('',#584,#480,#481);
#387=AXIS2_PLACEMENT_3D('',#585,#482,#483);
#388=AXIS2_PLACEMENT_3D('',#588,#484,#485);
#389=AXIS2_PLACEMENT_3D('',#591,#488,#489);
#390=AXIS2_PLACEMENT_3D('',#595,#492,#493);
#391=AXIS2_PLACEMENT_3D('',#598,#495,#496);
#392=AXIS2_PLACEMENT_3D('',#599,#497,#498);
#393=AXIS2_PLACEMENT_3D('',#601,#500,#501);
#394=AXIS2_PLACEMENT_3D('',#602,#502,#503);
#395=AXIS2_PLACEMENT_3D('',#603,#504,#505);
#396=AXIS2_PLACEMENT_3D('',#604,#506,#507);
#397=AXIS2_PLACEMENT_3D('',#605,#508,#509);
#398=DIRECTION('axis',(0.,0.,1.));
#399=DIRECTION('refdir',(1.,0.,0.));
#400=DIRECTION('center_axis',(0.,1.,0.));
#401=DIRECTION('ref_axis',(1.,0.,0.));
#402=DIRECTION('center_axis',(0.,1.,0.));
#403=DIRECTION('ref_axis',(1.,0.,0.));
#404=DIRECTION('',(0.,1.,0.));
#405=DIRECTION('center_axis',(0.,-1.,0.));
#406=DIRECTION('ref_axis',(1.,0.,0.));
#407=DIRECTION('',(0.,-1.,0.));
#408=DIRECTION('center_axis',(1.,-6.12323399573677E-17,0.));
#409=DIRECTION('ref_axis',(0.,-1.,0.));
#410=DIRECTION('center_axis',(0.,0.,1.));
#411=DIRECTION('ref_axis',(1.,0.,0.));
#412=DIRECTION('center_axis',(-1.20759397389995E-15,1.,6.12323399573674E-17));
#413=DIRECTION('ref_axis',(-1.,-1.20759397389995E-15,7.93016446160823E-16));
#414=DIRECTION('center_axis',(0.,0.,1.));
#415=DIRECTION('ref_axis',(1.,0.,0.));
#416=DIRECTION('center_axis',(0.,0.,-1.));
#417=DIRECTION('ref_axis',(-1.,0.,0.));
#418=DIRECTION('center_axis',(1.22464679914735E-16,1.5538640839393E-31,
-1.));
#419=DIRECTION('ref_axis',(-1.,-2.53765262771464E-15,-1.22464679914735E-16));
#420=DIRECTION('',(0.,-1.,0.));
#421=DIRECTION('center_axis',(0.,0.,-1.));
#422=DIRECTION('ref_axis',(-1.,0.,0.));
#423=DIRECTION('',(2.53765262771464E-15,-1.,1.5538640839393E-31));
#424=DIRECTION('center_axis',(1.22464679914735E-16,1.5538640839393E-31,
-1.));
#425=DIRECTION('ref_axis',(-1.,-2.53765262771464E-15,-1.22464679914735E-16));
#426=DIRECTION('center_axis',(1.,0.,0.));
#427=DIRECTION('ref_axis',(0.,-1.,0.));
#428=DIRECTION('center_axis',(-1.26882631385732E-15,1.,0.));
#429=DIRECTION('ref_axis',(-1.,-1.26882631385732E-15,-3.17206578464331E-16));
#430=DIRECTION('center_axis',(-1.26882631385732E-15,1.,0.));
#431=DIRECTION('ref_axis',(-1.,-1.26882631385732E-15,0.));
#432=DIRECTION('center_axis',(1.,0.,0.));
#433=DIRECTION('ref_axis',(0.,-1.,0.));
#434=DIRECTION('center_axis',(0.,-1.,0.));
#435=DIRECTION('ref_axis',(1.,0.,0.));
#436=DIRECTION('center_axis',(1.22464679914735E-16,1.5538640839393E-31,
-1.));
#437=DIRECTION('ref_axis',(-1.,-2.53765262771464E-15,-1.22464679914735E-16));
#438=DIRECTION('center_axis',(1.,-6.12323399573677E-17,0.));
#439=DIRECTION('ref_axis',(0.,-1.,0.));
#440=DIRECTION('center_axis',(0.,1.,0.));
#441=DIRECTION('ref_axis',(1.,0.,0.));
#442=DIRECTION('center_axis',(0.,0.,1.));
#443=DIRECTION('ref_axis',(1.,0.,0.));
#444=DIRECTION('center_axis',(0.,0.,-1.));
#445=DIRECTION('ref_axis',(-1.,0.,0.));
#446=DIRECTION('',(0.,1.,0.));
#447=DIRECTION('',(0.,-1.,0.));
#448=DIRECTION('center_axis',(0.,1.,0.));
#449=DIRECTION('ref_axis',(1.,0.,0.));
#450=DIRECTION('center_axis',(0.,0.,-1.));
#451=DIRECTION('ref_axis',(-1.,0.,0.));
#452=DIRECTION('center_axis',(0.,0.,-1.));
#453=DIRECTION('ref_axis',(-0.553571428571426,0.832801701168646,0.));
#454=DIRECTION('',(9.65411325761005E-16,-1.,0.));
#455=DIRECTION('center_axis',(0.,0.,-1.));
#456=DIRECTION('ref_axis',(1.,0.,0.));
#457=DIRECTION('',(0.,1.,0.));
#458=DIRECTION('center_axis',(0.,0.,-1.));
#459=DIRECTION('ref_axis',(-1.,0.,0.));
#460=DIRECTION('',(-1.2205411687211E-15,1.,0.));
#461=DIRECTION('center_axis',(0.,0.,-1.));
#462=DIRECTION('ref_axis',(-0.553571428571426,0.832801701168646,0.));
#463=DIRECTION('',(5.75062666032058E-16,-1.,0.));
#464=DIRECTION('',(1.,0.,0.));
#465=DIRECTION('center_axis',(1.,5.75062666032058E-16,0.));
#466=DIRECTION('ref_axis',(5.75062666032058E-16,-1.,0.));
#467=DIRECTION('',(-5.75062666032058E-16,1.,0.));
#468=DIRECTION('',(0.,0.,-1.));
#469=DIRECTION('',(0.,0.,-1.));
#470=DIRECTION('center_axis',(-1.,-1.2205411687211E-15,0.));
#471=DIRECTION('ref_axis',(-1.2205411687211E-15,1.,0.));
#472=DIRECTION('',(1.2205411687211E-15,-1.,0.));
#473=DIRECTION('',(0.,0.,-1.));
#474=DIRECTION('',(0.,0.,-1.));
#475=DIRECTION('center_axis',(0.,1.,0.));
#476=DIRECTION('ref_axis',(1.,0.,0.));
#477=DIRECTION('',(-1.,0.,0.));
#478=DIRECTION('center_axis',(0.,0.,1.));
#479=DIRECTION('ref_axis',(1.,0.,0.));
#480=DIRECTION('center_axis',(1.22464679914735E-16,1.5538640839393E-31,
-1.));
#481=DIRECTION('ref_axis',(-1.,-2.53765262771464E-15,-1.22464679914735E-16));
#482=DIRECTION('center_axis',(0.,0.,-1.));
#483=DIRECTION('ref_axis',(1.,0.,0.));
#484=DIRECTION('center_axis',(0.,0.,1.));
#485=DIRECTION('ref_axis',(1.,0.,0.));
#486=DIRECTION('',(0.,0.,-1.));
#487=DIRECTION('',(0.,0.,-1.));
#488=DIRECTION('center_axis',(1.,2.53765262771464E-15,0.));
#489=DIRECTION('ref_axis',(2.53765262771464E-15,-1.,1.5538640839393E-31));
#490=DIRECTION('',(2.53765262771464E-15,-1.,1.5538640839393E-31));
#491=DIRECTION('',(0.,0.,-1.));
#492=DIRECTION('center_axis',(0.,0.,-1.));
#493=DIRECTION('ref_axis',(-1.,-2.53765262771464E-15,0.));
#494=DIRECTION('',(0.,0.,-1.));
#495=DIRECTION('center_axis',(1.22464679914735E-16,1.5538640839393E-31,
-1.));
#496=DIRECTION('ref_axis',(-1.,-2.53765262771464E-15,-1.22464679914735E-16));
#497=DIRECTION('center_axis',(-1.,0.,0.));
#498=DIRECTION('ref_axis',(0.,1.,0.));
#499=DIRECTION('',(0.,-1.,0.));
#500=DIRECTION('center_axis',(1.,0.,0.));
#501=DIRECTION('ref_axis',(0.,-1.,0.));
#502=DIRECTION('center_axis',(-1.26882631385732E-15,1.,0.));
#503=DIRECTION('ref_axis',(-1.,-1.26882631385732E-15,-3.17206578464331E-16));
#504=DIRECTION('center_axis',(1.,-6.12323399573677E-17,0.));
#505=DIRECTION('ref_axis',(0.,-1.,0.));
#506=DIRECTION('center_axis',(-1.20759397389995E-15,1.,6.12323399573674E-17));
#507=DIRECTION('ref_axis',(-1.,-1.20759397389995E-15,7.93016446160823E-16));
#508=DIRECTION('center_axis',(-1.26882631385732E-15,1.,0.));
#509=DIRECTION('ref_axis',(-1.,-1.26882631385732E-15,0.));
#510=CARTESIAN_POINT('',(0.,0.,0.));
#511=CARTESIAN_POINT('Origin',(7.,0.,0.));
#512=CARTESIAN_POINT('',(5.,42.190964663212,0.));
#513=CARTESIAN_POINT('',(9.,42.190964663212,0.));
#514=CARTESIAN_POINT('Origin',(7.,42.190964663212,0.));
#515=CARTESIAN_POINT('',(5.,-5.39096466321199,0.));
#516=CARTESIAN_POINT('',(5.,0.,0.));
#517=CARTESIAN_POINT('',(9.,-5.39096466321199,0.));
#518=CARTESIAN_POINT('Origin',(7.,-5.39096466321199,0.));
#519=CARTESIAN_POINT('',(9.,0.,0.));
#520=CARTESIAN_POINT('Origin',(7.,0.,0.));
#521=CARTESIAN_POINT('',(1.24999999999997,-3.52085954754866E-16,0.));
#522=CARTESIAN_POINT('Origin',(7.,0.,0.));
#523=CARTESIAN_POINT('',(12.75,-3.52085954754866E-16,0.));
#524=CARTESIAN_POINT('Origin',(7.00000000000002,7.64783725943447E-15,-4.55984456542475E-15));
#525=CARTESIAN_POINT('Origin',(7.,0.,0.));
#526=CARTESIAN_POINT('Origin',(7.,18.4,0.));
#527=CARTESIAN_POINT('',(1.24999999999998,36.8,0.));
#528=CARTESIAN_POINT('Origin',(6.99999999999997,36.8,-1.82247999308872E-30));
#529=CARTESIAN_POINT('',(1.25,36.8,0.));
#530=CARTESIAN_POINT('Origin',(7.,18.4,0.));
#531=CARTESIAN_POINT('',(12.75,36.8,0.));
#532=CARTESIAN_POINT('',(12.75,36.8,8.57252759403145E-16));
#533=CARTESIAN_POINT('Origin',(6.99999999999997,36.8,-1.82247999308872E-30));
#534=CARTESIAN_POINT('Origin',(7.,36.8,0.));
#535=CARTESIAN_POINT('Origin',(6.99999999999999,36.8,1.8239378261699E-15));
#536=CARTESIAN_POINT('Origin',(7.00000000000001,18.4,0.));
#537=CARTESIAN_POINT('Origin',(7.,36.8,0.));
#538=CARTESIAN_POINT('',(7.75,42.5008771254957,0.));
#539=CARTESIAN_POINT('',(6.25,42.5008771254957,0.));
#540=CARTESIAN_POINT('Origin',(7.,42.5008771254957,0.));
#541=CARTESIAN_POINT('Origin',(6.99999999999997,36.8,-1.82247999308872E-30));
#542=CARTESIAN_POINT('Origin',(7.,0.,0.));
#543=CARTESIAN_POINT('',(6.25,-5.70087712549572,0.));
#544=CARTESIAN_POINT('',(7.75,-5.70087712549572,0.));
#545=CARTESIAN_POINT('Origin',(7.,-5.70087712549572,0.));
#546=CARTESIAN_POINT('Origin',(7.,0.,0.));
#547=CARTESIAN_POINT('Origin',(7.,18.4,0.));
#548=CARTESIAN_POINT('',(7.75,0.,0.));
#549=CARTESIAN_POINT('',(6.25,0.,0.));
#550=CARTESIAN_POINT('Origin',(7.,0.,0.));
#551=CARTESIAN_POINT('Origin',(7.,18.4,-5.25));
#552=CARTESIAN_POINT('',(0.,36.8,-5.25));
#553=CARTESIAN_POINT('',(14.,36.8,-5.25));
#554=CARTESIAN_POINT('Origin',(6.99999999999997,36.8,-5.25));
#555=CARTESIAN_POINT('',(14.,0.,-5.25));
#556=CARTESIAN_POINT('',(14.,36.8,-5.25));
#557=CARTESIAN_POINT('',(0.,4.44089209850063E-15,-5.25));
#558=CARTESIAN_POINT('Origin',(7.,0.,-5.25));
#559=CARTESIAN_POINT('',(0.,2.67999808924886E-15,-5.25));
#560=CARTESIAN_POINT('Origin',(7.,18.4,-3.75));
#561=CARTESIAN_POINT('',(10.875,-3.5,-3.75));
#562=CARTESIAN_POINT('',(10.875,42.6296119081805,-3.75));
#563=CARTESIAN_POINT('',(10.875,-3.5,-3.75));
#564=CARTESIAN_POINT('',(3.125,42.6296119081805,-3.75));
#565=CARTESIAN_POINT('Origin',(6.99999999999997,36.8,-3.75));
#566=CARTESIAN_POINT('',(3.12500000000003,-3.5,-3.75));
#567=CARTESIAN_POINT('',(3.125,43.8,-3.75));
#568=CARTESIAN_POINT('',(6.625,-3.5,-3.75));
#569=CARTESIAN_POINT('Origin',(3.125,42.6296119081805,-1.75));
#570=CARTESIAN_POINT('',(3.12500000000003,-3.5,-1.75));
#571=CARTESIAN_POINT('',(3.125,42.6296119081805,-1.75));
#572=CARTESIAN_POINT('',(3.12500000000001,30.5148059540903,-1.75));
#573=CARTESIAN_POINT('',(3.12500000000003,-3.5,-1.75));
#574=CARTESIAN_POINT('',(3.125,42.6296119081805,-1.75));
#575=CARTESIAN_POINT('Origin',(10.875,-3.5,-1.75));
#576=CARTESIAN_POINT('',(10.875,42.6296119081805,-1.75));
#577=CARTESIAN_POINT('',(10.875,-3.5,-1.75));
#578=CARTESIAN_POINT('',(10.875,7.45000000000001,-1.75));
#579=CARTESIAN_POINT('',(10.875,42.6296119081805,-1.75));
#580=CARTESIAN_POINT('',(10.875,-3.5,-1.75));
#581=CARTESIAN_POINT('Origin',(3.12500000000003,-3.5,-1.75));
#582=CARTESIAN_POINT('',(3.31250000000002,-3.5,-1.75));
#583=CARTESIAN_POINT('Origin',(3.50000000000001,18.4,-1.75));
#584=CARTESIAN_POINT('Origin',(6.99999999999997,36.8,-1.75));
#585=CARTESIAN_POINT('Origin',(7.,0.,0.));
#586=CARTESIAN_POINT('',(0.,8.57252759403147E-16,0.));
#587=CARTESIAN_POINT('',(14.0000000000001,1.77635683940025E-14,8.57252759403151E-16));
#588=CARTESIAN_POINT('Origin',(7.,0.,0.));
#589=CARTESIAN_POINT('',(0.,8.57252759403147E-16,0.));
#590=CARTESIAN_POINT('',(14.0000000000001,1.77635683940025E-14,8.57252759403151E-16));
#591=CARTESIAN_POINT('Origin',(14.,36.8,8.57252759403145E-16));
#592=CARTESIAN_POINT('',(14.,36.8,8.57252759403145E-16));
#593=CARTESIAN_POINT('',(14.,36.8,8.57252759403145E-16));
#594=CARTESIAN_POINT('',(14.,36.8,8.57252759403145E-16));
#595=CARTESIAN_POINT('Origin',(6.99999999999997,36.8,-2.2186712959341E-30));
#596=CARTESIAN_POINT('',(0.,36.8,0.));
#597=CARTESIAN_POINT('',(0.,36.8,0.));
#598=CARTESIAN_POINT('Origin',(6.99999999999997,36.8,-2.2186712959341E-30));
#599=CARTESIAN_POINT('Origin',(0.,0.,0.));
#600=CARTESIAN_POINT('',(0.,36.8,0.));
#601=CARTESIAN_POINT('Origin',(7.,36.8,0.));
#602=CARTESIAN_POINT('Origin',(6.99999999999998,36.8,2.22044604925031E-15));
#603=CARTESIAN_POINT('Origin',(7.,0.,0.));
#604=CARTESIAN_POINT('Origin',(7.00000000000003,9.31041057670283E-15,-5.55111512312578E-15));
#605=CARTESIAN_POINT('Origin',(7.00000000000001,18.4,0.));
#606=UNCERTAINTY_MEASURE_WITH_UNIT(LENGTH_MEASURE(0.01),#610,
'DISTANCE_ACCURACY_VALUE',
'Maximum model space distance between geometric entities at asserted c
onnectivities');
#607=UNCERTAINTY_MEASURE_WITH_UNIT(LENGTH_MEASURE(0.01),#610,
'DISTANCE_ACCURACY_VALUE',
'Maximum model space distance between geometric entities at asserted c
onnectivities');
#608=(
GEOMETRIC_REPRESENTATION_CONTEXT(3)
GLOBAL_UNCERTAINTY_ASSIGNED_CONTEXT((#606))
GLOBAL_UNIT_ASSIGNED_CONTEXT((#610,#612,#613))
REPRESENTATION_CONTEXT('','3D')
);
#609=(
GEOMETRIC_REPRESENTATION_CONTEXT(3)
GLOBAL_UNCERTAINTY_ASSIGNED_CONTEXT((#607))
GLOBAL_UNIT_ASSIGNED_CONTEXT((#610,#612,#613))
REPRESENTATION_CONTEXT('','3D')
);
#610=(
LENGTH_UNIT()
NAMED_UNIT(*)
SI_UNIT(.MILLI.,.METRE.)
);
#611=(
LENGTH_UNIT()
NAMED_UNIT(*)
SI_UNIT($,.METRE.)
);
#612=(
NAMED_UNIT(*)
PLANE_ANGLE_UNIT()
SI_UNIT($,.RADIAN.)
);
#613=(
NAMED_UNIT(*)
SI_UNIT($,.STERADIAN.)
SOLID_ANGLE_UNIT()
);
#614=SHAPE_DEFINITION_REPRESENTATION(#615,#616);
#615=PRODUCT_DEFINITION_SHAPE('',$,#618);
#616=SHAPE_REPRESENTATION('',(#354),#608);
#617=PRODUCT_DEFINITION_CONTEXT('part definition',#622,'design');
#618=PRODUCT_DEFINITION('LED Release','LED Release v1',#619,#617);
#619=PRODUCT_DEFINITION_FORMATION('',$,#624);
#620=PRODUCT_RELATED_PRODUCT_CATEGORY('LED Release v1','LED Release v1',
(#624));
#621=APPLICATION_PROTOCOL_DEFINITION('international standard',
'automotive_design',2009,#622);
#622=APPLICATION_CONTEXT(
'Core Data for Automotive Mechanical Design Process');
#623=PRODUCT_CONTEXT('part definition',#622,'mechanical');
#624=PRODUCT('LED Release','LED Release v1',$,(#623));
#625=PRESENTATION_STYLE_ASSIGNMENT((#627));
#626=PRESENTATION_STYLE_ASSIGNMENT((#628));
#627=SURFACE_STYLE_USAGE(.BOTH.,#629);
#628=SURFACE_STYLE_USAGE(.BOTH.,#630);
#629=SURFACE_SIDE_STYLE('',(#631));
#630=SURFACE_SIDE_STYLE('',(#632));
#631=SURFACE_STYLE_FILL_AREA(#633);
#632=SURFACE_STYLE_FILL_AREA(#634);
#633=FILL_AREA_STYLE('Steel - Satin',(#635));
#634=FILL_AREA_STYLE('Glass (Bronze)',(#636));
#635=FILL_AREA_STYLE_COLOUR('Steel - Satin',#637);
#636=FILL_AREA_STYLE_COLOUR('Glass (Bronze)',#638);
#637=COLOUR_RGB('Steel - Satin',0.627450980392157,0.627450980392157,0.627450980392157);
#638=COLOUR_RGB('Glass (Bronze)',0.627450980392157,0.486274509803922,0.349019607843137);
ENDSEC;
END-ISO-10303-21;
